  0
SECTION
  2
HEADER
  9
$ACADVER
  1
AC1018
  9
$HANDSEED
  5
FFFFFF
  9
$EXTMAX
 10
7569320.55800000019
 20
5713952.76900000032
 30
1000000.00
  9
$EXTMIN
 10
7569220.96899999958
 20
5713858.91999999993
 30
0.00
  9
$LIMMIN
 10
7569220.96899999958
 20
5713858.91999999993
  9
$LIMMAX
 10
7569320.55800000019
 20
5713952.76900000032
  9
$DIMASZ
 40
2.5
  9
$DIMGAP
 40
0.625
  9
$INSUNITS
 70
6
  9
$MEASUREMENT
 70
1
  9
$DIMEXO
 40
0.625
  9
$DIMTXT
 40
2.5
  9
$DIMSTYLE
  2
Standard
  9
$PLIMMIN
 10
0.0
 20
0.0
  9
$PLIMMAX
 10
210.0
 20
297.0
  9
$DIMEXE
 40
1.25
  9
$TEXTSIZE
 40
2.5
  9
$TEXTSTYLE
  7
Standard
  9
$LWDISPLAY
290
1
  9
$TDCREATE
 40
45784.404555046
  9
$TDUCREATE
 40
45784.321221713
  9
$TDUPDATE
 40
45784.404555058
  9
$TDUUPDATE
 40
45784.321221725
  9
$TDINDWG
 40
0.0
  9
$TDUSRTIMER
 40
0.0
  9
$USRTIMER
 70
1
  0
ENDSEC
  0
SECTION
  2
TABLES
  0
TABLE
  2
VPORT
  5
1
100
AcDbSymbolTable
 70
1
  0
VPORT
  5
2
100
AcDbSymbolTableRecord
100
AcDbViewportTableRecord
  2
*ACTIVE
 70
0
 10
0.0
 20
0.0
 11
1.0
 21
1.0
 12
7569270.763
 22
5713905.844
 13
0.0
 23
0.0
 14
1.0
 24
1.0
 15
0.0
 25
0.0
 16
0.0
 26
0.0
 36
1.0
 17
0.0
 27
0.0
 37
0.0
 40
93.849
 41
1.061
 42
50.0
 43
0.0
 44
0.0
 50
0.0
 51
0.0
 71
0
 72
100
 73
1
 74
1
 75
0
 76
0
 77
0
 78
0
  0
ENDTAB
  0
TABLE
  2
LTYPE
  5
3
100
AcDbSymbolTable
 70
3
  0
LTYPE
  5
4
100
AcDbSymbolTableRecord
100
AcDbLinetypeTableRecord
  2
ByBlock
 70
0
  3

 72
65
 73
0
 40
0.0
  0
LTYPE
  5
5
100
AcDbSymbolTableRecord
100
AcDbLinetypeTableRecord
  2
ByLayer
 70
0
  3

 72
65
 73
0
 40
0.0
  0
LTYPE
  5
6
100
AcDbSymbolTableRecord
100
AcDbLinetypeTableRecord
  2
CONTINUOUS
 70
0
  3
Solid line
 72
65
 73
0
 40
0.0
  0
LTYPE
  5
8
100
AcDbSymbolTableRecord
100
AcDbLinetypeTableRecord
  2
L_0_02
 70
0
  3
Dzialka_ewidencyjna (MLineStyle)
 72
65
 73
0
 40
0.0
  0
ENDTAB
  0
TABLE
  2
LAYER
  5
9
100
AcDbSymbolTable
 70
3
  0
LAYER
  5
A
100
AcDbSymbolTableRecord
100
AcDbLayerTableRecord
  2
0
 70
0
420
0
  6
CONTINUOUS
370
18
390
B
  0
LAYER
  5
C
100
AcDbSymbolTableRecord
100
AcDbLayerTableRecord
  2
Dzialki
 70
0
420
32768
  6
CONTINUOUS
370
18
390
B
  0
LAYER
  5
D
100
AcDbSymbolTableRecord
100
AcDbLayerTableRecord
  2
__osie
 70
0
420
16711680
  6
CONTINUOUS
370
35
390
B
  0
ENDTAB
  0
TABLE
  2
STYLE
  5
E
100
AcDbSymbolTable
 70
2
  0
STYLE
  5
F
100
AcDbSymbolTableRecord
100
AcDbTextStyleTableRecord
  2
STANDARD
 70
0
 40
0.0
 41
1.0
 50
0.0
 71
0
  3
simplex.shx
  4

  0
STYLE
  5
10
100
AcDbSymbolTableRecord
100
AcDbTextStyleTableRecord
  2
STANDARD_ITALIC
 70
0
 40
0.0
 41
1.0
 50
15.0
 71
0
  3
simplex.shx
  4

  0
ENDTAB
  0
TABLE
  2
VIEW
  5
11
100
AcDbSymbolTable
 70
0
  0
ENDTAB
  0
TABLE
  2
UCS
  5
12
100
AcDbSymbolTable
 70
0
  0
ENDTAB
  0
TABLE
  2
APPID
  5
13
100
AcDbSymbolTable
 70
1
  0
APPID
  5
14
100
AcDbSymbolTableRecord
100
AcDbRegAppTableRecord
  2
ACAD
 70
0
  0
ENDTAB
  0
TABLE
  2
DIMSTYLE
  5
15
100
AcDbSymbolTable
 70
1
100
AcDbDimStyleTable
  0
DIMSTYLE
105
16
100
AcDbSymbolTableRecord
100
AcDbDimStyleTableRecord
  2
Standard
 70
0
340
F
  0
ENDTAB
  0
TABLE
  2
BLOCK_RECORD
  5
17
100
AcDbSymbolTable
 70
4
  0
BLOCK_RECORD
  5
18
100
AcDbSymbolTableRecord
100
AcDbBlockTableRecord
  2
*Model_Space
340
19
  0
BLOCK_RECORD
  5
1A
100
AcDbSymbolTableRecord
100
AcDbBlockTableRecord
  2
*Paper_Space
340
1B
  0
BLOCK_RECORD
  5
1C
100
AcDbSymbolTableRecord
100
AcDbBlockTableRecord
  2
L_0_02_1
340
1D
  0
BLOCK_RECORD
  5
1E
100
AcDbSymbolTableRecord
100
AcDbBlockTableRecord
  2
L_0_02_2
340
1F
  0
ENDTAB
  0
ENDSEC
  0
SECTION
  2
BLOCKS
  0
BLOCK
  5
20
100
AcDbEntity
  8
0
100
AcDbBlockBegin
  2
*Model_Space
 70
0
 10
0.0
 20
0.0
 30
0.0
  3
*Model_Space
  1

  0
ENDBLK
  5
21
100
AcDbEntity
  8
0
100
AcDbBlockEnd
  0
BLOCK
  5
22
100
AcDbEntity
 67
1
  8
0
100
AcDbBlockBegin
  2
*Paper_Space
 70
0
 10
0.0
 20
0.0
 30
0.0
  3
*Paper_Space
  1

  0
ENDBLK
  5
23
100
AcDbEntity
 67
1
  8
0
100
AcDbBlockEnd
  0
BLOCK
  5
1D
100
AcDbEntity
  8
0
100
AcDbBlockBegin
 62
0
370
13
  2
L_0_02_1
 70
0
 10
0
 20
0
 30
0
  3
L_0_02_1
  0
POINT
  5
24
100
AcDbEntity
  8
0
100
AcDbPoint
 62
0
 10
0.0
 20
0.0
 30
0.00
  0
ENDBLK
  5
25
100
AcDbEntity
  8
0
100
AcDbBlockEnd
  0
BLOCK
  5
1F
100
AcDbEntity
  8
0
100
AcDbBlockBegin
 62
0
370
13
  2
L_0_02_2
 70
0
 10
0
 20
0
 30
0
  3
L_0_02_2
  0
POINT
  5
26
100
AcDbEntity
  8
0
100
AcDbPoint
 62
0
 10
-0.0
 20
-0.0
 30
0.00
  0
ENDBLK
  5
27
100
AcDbEntity
  8
0
100
AcDbBlockEnd
  0
ENDSEC
  0
SECTION
  2
ENTITIES
  0
INSERT
  5
28
100
AcDbEntity
  8
Dzialki
  6
CONTINUOUS
100
AcDbBlockReference
 66
0
  2
L_0_02_1
 10
7569276.71999999974
 20
5713876.34999999963
 41
0.25
 42
0.25
 43
0.25
 50
184.29
  0
INSERT
  5
29
100
AcDbEntity
  8
Dzialki
  6
CONTINUOUS
100
AcDbBlockReference
 66
0
  2
L_0_02_2
 10
7569258.1799999997
 20
5713874.95999999996
 41
0.25
 42
0.25
 43
0.25
 50
4.29
  0
MLINE
  5
2A
100
AcDbEntity
  8
Dzialki
  6
L_0_02
370
18
100
AcDbMline
  2
L_0_02
340
7
 40
1.0
 70
1
 71
1
 72
2
 73
1
 10
7569276.71999999974
 20
5713876.34999999963
210
0.0
220
0.0
230
1.0
 11
7569276.71999999974
 21
5713876.34999999963
 12
-0.997201315242
 22
-0.074763205386
 13
0.074763205386
 23
-0.997201315242
 74
3
 41
0.0
 41
0.125
 41
18.467033240086
 75
0
 11
7569258.1799999997
 21
5713874.95999999996
 12
-0.997201315242
 22
-0.074763205386
 13
0.074763205386
 23
-0.997201315242
 74
0
 75
0
  0
INSERT
  5
2B
100
AcDbEntity
  8
Dzialki
  6
CONTINUOUS
100
AcDbBlockReference
 66
0
  2
L_0_02_1
 10
7569258.1799999997
 20
5713874.95999999996
 41
0.25
 42
0.25
 43
0.25
 50
184.29
  0
INSERT
  5
2C
100
AcDbEntity
  8
Dzialki
  6
CONTINUOUS
100
AcDbBlockReference
 66
0
  2
L_0_02_2
 10
7569240.04000000004
 20
5713873.59999999963
 41
0.25
 42
0.25
 43
0.25
 50
4.29
  0
MLINE
  5
2D
100
AcDbEntity
  8
Dzialki
  6
L_0_02
370
18
100
AcDbMline
  2
L_0_02
340
7
 40
1.0
 70
1
 71
1
 72
2
 73
1
 10
7569258.1799999997
 20
5713874.95999999996
210
0.0
220
0.0
230
1.0
 11
7569258.1799999997
 21
5713874.95999999996
 12
-0.997201359451
 22
-0.074762615723
 13
0.074762615723
 23
-0.997201359451
 74
3
 41
0.0
 41
0.125
 41
18.065909817509
 75
0
 11
7569240.04000000004
 21
5713873.59999999963
 12
-0.997201359451
 22
-0.074762615723
 13
0.074762615723
 23
-0.997201359451
 74
0
 75
0
  0
INSERT
  5
2E
100
AcDbEntity
  8
Dzialki
  6
CONTINUOUS
100
AcDbBlockReference
 66
0
  2
L_0_02_1
 10
7569317.73641047254
 20
5713876.94930919446
 41
0.25
 42
0.25
 43
0.25
 50
154.30
  0
INSERT
  5
2F
100
AcDbEntity
  8
Dzialki
  6
CONTINUOUS
100
AcDbBlockReference
 66
0
  2
L_0_02_2
 10
7569313.30999999959
 20
5713879.08000000007
 41
0.25
 42
0.25
 43
0.25
 50
334.30
  0
MLINE
  5
30
100
AcDbEntity
  8
Dzialki
  6
L_0_02
370
18
100
AcDbMline
  2
L_0_02
340
7
 40
1.0
 70
1
 71
1
 72
2
 73
1
 10
7569317.73641047254
 20
5713876.94930919446
210
0.0
220
0.0
230
1.0
 11
7569317.73641047254
 21
5713876.94930919446
 12
-0.901044938365
 22
0.433725741738
 13
-0.433725741738
 23
-0.901044938365
 74
3
 41
0.0
 41
0.125
 41
4.78753020186
 75
0
 11
7569313.30999999959
 21
5713879.08000000007
 12
-0.901044938365
 22
0.433725741738
 13
-0.433725741738
 23
-0.901044938365
 74
0
 75
0
  0
INSERT
  5
31
100
AcDbEntity
  8
Dzialki
  6
CONTINUOUS
100
AcDbBlockReference
 66
0
  2
L_0_02_1
 10
7569313.30999999959
 20
5713879.08000000007
 41
0.25
 42
0.25
 43
0.25
 50
184.27
  0
INSERT
  5
32
100
AcDbEntity
  8
Dzialki
  6
CONTINUOUS
100
AcDbBlockReference
 66
0
  2
L_0_02_2
 10
7569276.71999999974
 20
5713876.34999999963
 41
0.25
 42
0.25
 43
0.25
 50
4.27
  0
MLINE
  5
33
100
AcDbEntity
  8
Dzialki
  6
L_0_02
370
18
100
AcDbMline
  2
L_0_02
340
7
 40
1.0
 70
1
 71
1
 72
2
 73
1
 10
7569313.30999999959
 20
5713879.08000000007
210
0.0
220
0.0
230
1.0
 11
7569313.30999999959
 21
5713879.08000000007
 12
-0.997228200015
 22
-0.074403743823
 13
0.074403743823
 23
-0.997228200015
 74
3
 41
0.0
 41
0.125
 41
36.56670205907
 75
0
 11
7569276.71999999974
 21
5713876.34999999963
 12
-0.997228200015
 22
-0.074403743823
 13
0.074403743823
 23
-0.997228200015
 74
0
 75
0
  0
INSERT
  5
34
100
AcDbEntity
  8
Dzialki
  6
CONTINUOUS
100
AcDbBlockReference
 66
0
  2
L_0_02_1
 10
7569318.84583706409
 20
5713879.49428715557
 41
0.25
 42
0.25
 43
0.25
 50
184.28
  0
INSERT
  5
35
100
AcDbEntity
  8
Dzialki
  6
CONTINUOUS
100
AcDbBlockReference
 66
0
  2
L_0_02_2
 10
7569313.30999999959
 20
5713879.08000000007
 41
0.25
 42
0.25
 43
0.25
 50
4.28
  0
MLINE
  5
36
100
AcDbEntity
  8
Dzialki
  6
L_0_02
370
18
100
AcDbMline
  2
L_0_02
340
7
 40
1.0
 70
1
 71
1
 72
2
 73
1
 10
7569318.84583706409
 20
5713879.49428715557
210
0.0
220
0.0
230
1.0
 11
7569318.84583706409
 21
5713879.49428715557
 12
-0.997211396489
 22
-0.074628618593
 13
0.074628618593
 23
-0.997211396489
 74
3
 41
0.0
 41
0.125
 41
5.426317487936
 75
0
 11
7569313.30999999959
 21
5713879.08000000007
 12
-0.997211396489
 22
-0.074628618593
 13
0.074628618593
 23
-0.997211396489
 74
0
 75
0
  0
INSERT
  5
37
100
AcDbEntity
  8
Dzialki
  6
CONTINUOUS
100
AcDbBlockReference
 66
0
  2
L_0_02_1
 10
7569301.16999999993
 20
5713888.0700000003
 41
0.25
 42
0.25
 43
0.25
 50
4.27
  0
INSERT
  5
38
100
AcDbEntity
  8
Dzialki
  6
CONTINUOUS
100
AcDbBlockReference
 66
0
  2
L_0_02_2
 10
7569320.55757157039
 20
5713889.51922308095
 41
0.25
 42
0.25
 43
0.25
 50
184.27
  0
MLINE
  5
39
100
AcDbEntity
  8
Dzialki
  6
L_0_02
370
18
100
AcDbMline
  2
L_0_02
340
7
 40
1.0
 70
1
 71
1
 72
2
 73
1
 10
7569301.16999999993
 20
5713888.0700000003
210
0.0
220
0.0
230
1.0
 11
7569301.16999999993
 21
5713888.0700000003
 12
0.997217864269
 22
0.074542143666
 13
-0.074542143666
 23
0.997217864269
 74
3
 41
0.0
 41
0.125
 41
19.316660909946
 75
0
 11
7569320.55757157039
 21
5713889.51922308095
 12
0.997217864269
 22
0.074542143666
 13
-0.074542143666
 23
0.997217864269
 74
0
 75
0
  0
INSERT
  5
3A
100
AcDbEntity
  8
Dzialki
  6
CONTINUOUS
100
AcDbBlockReference
 66
0
  2
L_0_02_1
 10
7569249.20999999996
 20
5713924.28000000026
 41
0.25
 42
0.25
 43
0.25
 50
4.29
  0
INSERT
  5
3B
100
AcDbEntity
  8
Dzialki
  6
CONTINUOUS
100
AcDbBlockReference
 66
0
  2
L_0_02_2
 10
7569298.45000000019
 20
5713927.96999999974
 41
0.25
 42
0.25
 43
0.25
 50
184.29
  0
MLINE
  5
3C
100
AcDbEntity
  8
Dzialki
  6
L_0_02
370
18
100
AcDbMline
  2
L_0_02
340
7
 40
1.0
 70
1
 71
1
 72
2
 73
1
 10
7569249.20999999996
 20
5713924.28000000026
210
0.0
220
0.0
230
1.0
 11
7569249.20999999996
 21
5713924.28000000026
 12
0.99720383925
 22
0.074729532216
 13
-0.074729532216
 23
0.99720383925
 74
3
 41
0.0
 41
0.125
 41
49.253069018727
 75
0
 11
7569298.45000000019
 21
5713927.96999999974
 12
0.99720383925
 22
0.074729532216
 13
-0.074729532216
 23
0.99720383925
 74
0
 75
0
  0
INSERT
  5
3D
100
AcDbEntity
  8
Dzialki
  6
CONTINUOUS
100
AcDbBlockReference
 66
0
  2
L_0_02_1
 10
7569295.12000000011
 20
5713887.62000000011
 41
0.25
 42
0.25
 43
0.25
 50
85.28
  0
INSERT
  5
3E
100
AcDbEntity
  8
Dzialki
  6
CONTINUOUS
100
AcDbBlockReference
 66
0
  2
L_0_02_2
 10
7569298.45000000019
 20
5713927.96999999974
 41
0.25
 42
0.25
 43
0.25
 50
265.28
  0
MLINE
  5
3F
100
AcDbEntity
  8
Dzialki
  6
L_0_02
370
18
100
AcDbMline
  2
L_0_02
340
7
 40
1.0
 70
1
 71
1
 72
2
 73
1
 10
7569295.12000000011
 20
5713887.62000000011
210
0.0
220
0.0
230
1.0
 11
7569295.12000000011
 21
5713887.62000000011
 12
0.082248265991
 22
0.996611871664
 13
-0.996611871664
 23
0.082248265991
 74
3
 41
0.0
 41
0.125
 41
40.362175747024
 75
0
 11
7569298.45000000019
 21
5713927.96999999974
 12
0.082248265991
 22
0.996611871664
 13
-0.996611871664
 23
0.082248265991
 74
0
 75
0
  0
INSERT
  5
40
100
AcDbEntity
  8
Dzialki
  6
CONTINUOUS
100
AcDbBlockReference
 66
0
  2
L_0_02_1
 10
7569249.20999999996
 20
5713924.28000000026
 41
0.25
 42
0.25
 43
0.25
 50
265.24
  0
INSERT
  5
41
100
AcDbEntity
  8
Dzialki
  6
CONTINUOUS
100
AcDbBlockReference
 66
0
  2
L_0_02_2
 10
7569245.84999999963
 20
5713883.9299999997
 41
0.25
 42
0.25
 43
0.25
 50
85.24
  0
MLINE
  5
42
100
AcDbEntity
  8
Dzialki
  6
L_0_02
370
18
100
AcDbMline
  2
L_0_02
340
7
 40
1.0
 70
1
 71
1
 72
2
 73
1
 10
7569249.20999999996
 20
5713924.28000000026
210
0.0
220
0.0
230
1.0
 11
7569249.20999999996
 21
5713924.28000000026
 12
-0.082984161358
 22
-0.99655086622
 13
0.99655086622
 23
-0.082984161358
 74
3
 41
0.0
 41
0.125
 41
40.364654234722
 75
0
 11
7569245.84999999963
 21
5713883.9299999997
 12
-0.082984161358
 22
-0.99655086622
 13
0.99655086622
 23
-0.082984161358
 74
0
 75
0
  0
INSERT
  5
43
100
AcDbEntity
  8
Dzialki
  6
CONTINUOUS
100
AcDbBlockReference
 66
0
  2
L_0_02_1
 10
7569245.84999999963
 20
5713883.9299999997
 41
0.25
 42
0.25
 43
0.25
 50
4.28
  0
INSERT
  5
44
100
AcDbEntity
  8
Dzialki
  6
CONTINUOUS
100
AcDbBlockReference
 66
0
  2
L_0_02_2
 10
7569295.12000000011
 20
5713887.62000000011
 41
0.25
 42
0.25
 43
0.25
 50
184.28
  0
MLINE
  5
45
100
AcDbEntity
  8
Dzialki
  6
L_0_02
370
18
100
AcDbMline
  2
L_0_02
340
7
 40
1.0
 70
1
 71
1
 72
2
 73
1
 10
7569245.84999999963
 20
5713883.9299999997
210
0.0
220
0.0
230
1.0
 11
7569245.84999999963
 21
5713883.9299999997
 12
0.997207229072
 22
0.07468428406
 13
-0.07468428406
 23
0.997207229072
 74
3
 41
0.0
 41
0.125
 41
49.282985185097
 75
0
 11
7569295.12000000011
 21
5713887.62000000011
 12
0.997207229072
 22
0.07468428406
 13
-0.07468428406
 23
0.997207229072
 74
0
 75
0
  0
INSERT
  5
46
100
AcDbEntity
  8
Dzialki
  6
CONTINUOUS
100
AcDbBlockReference
 66
0
  2
L_0_02_1
 10
7569295.12000000011
 20
5713887.62000000011
 41
0.25
 42
0.25
 43
0.25
 50
4.25
  0
INSERT
  5
47
100
AcDbEntity
  8
Dzialki
  6
CONTINUOUS
100
AcDbBlockReference
 66
0
  2
L_0_02_2
 10
7569301.16999999993
 20
5713888.0700000003
 41
0.25
 42
0.25
 43
0.25
 50
184.25
  0
MLINE
  5
48
100
AcDbEntity
  8
Dzialki
  6
L_0_02
370
18
100
AcDbMline
  2
L_0_02
340
7
 40
1.0
 70
1
 71
1
 72
2
 73
1
 10
7569295.12000000011
 20
5713887.62000000011
210
0.0
220
0.0
230
1.0
 11
7569295.12000000011
 21
5713887.62000000011
 12
0.997245220672
 22
0.074175264381
 13
-0.074175264381
 23
0.997245220672
 74
3
 41
0.0
 41
0.125
 41
5.941712453868
 75
0
 11
7569301.16999999993
 21
5713888.0700000003
 12
0.997245220672
 22
0.074175264381
 13
-0.074175264381
 23
0.997245220672
 74
0
 75
0
  0
INSERT
  5
49
100
AcDbEntity
  8
Dzialki
  6
CONTINUOUS
100
AcDbBlockReference
 66
0
  2
L_0_02_1
 10
7569228.38999999966
 20
5713882.62999999989
 41
0.25
 42
0.25
 43
0.25
 50
4.26
  0
INSERT
  5
4A
100
AcDbEntity
  8
Dzialki
  6
CONTINUOUS
100
AcDbBlockReference
 66
0
  2
L_0_02_2
 10
7569245.84999999963
 20
5713883.9299999997
 41
0.25
 42
0.25
 43
0.25
 50
184.26
  0
MLINE
  5
4B
100
AcDbEntity
  8
Dzialki
  6
L_0_02
370
18
100
AcDbMline
  2
L_0_02
340
7
 40
1.0
 70
1
 71
1
 72
2
 73
1
 10
7569228.38999999966
 20
5713882.62999999989
210
0.0
220
0.0
230
1.0
 11
7569228.38999999966
 21
5713882.62999999989
 12
0.997239631204
 22
0.074250373447
 13
-0.074250373447
 23
0.997239631204
 74
3
 41
0.0
 41
0.125
 41
17.383329446244
 75
0
 11
7569245.84999999963
 21
5713883.9299999997
 12
0.997239631204
 22
0.074250373447
 13
-0.074250373447
 23
0.997239631204
 74
0
 75
0
  0
POLYLINE
  5
4C
100
AcDbEntity
  8
__osie
  6
CONTINUOUS
370
35
100
AcDb2dPolyline
 66
1
 70
129
  0
VERTEX
  5
4D
100
AcDbEntity
  8
__osie
100
AcDbVertex
100
AcDb2dVertex
 10
7569261.38514475152
 20
5713921.96480403654
  0
VERTEX
  5
4E
100
AcDbEntity
  8
__osie
100
AcDbVertex
100
AcDb2dVertex
 10
7569261.76980068907
 20
5713916.8188581299
  0
VERTEX
  5
4F
100
AcDbEntity
  8
__osie
100
AcDbVertex
100
AcDb2dVertex
 10
7569252.63485524897
 20
5713916.13619596325
  0
VERTEX
  5
50
100
AcDbEntity
  8
__osie
100
AcDbVertex
100
AcDb2dVertex
 10
7569252.25019931048
 20
5713921.28214187082
  0
SEQEND
  5
51
100
AcDbEntity
  8
__osie
  0
POLYLINE
  5
52
100
AcDbEntity
  8
__osie
  6
CONTINUOUS
370
35
100
AcDb2dPolyline
 66
1
 70
129
  0
VERTEX
  5
53
100
AcDbEntity
  8
__osie
100
AcDbVertex
100
AcDb2dVertex
 10
7569286.48095008545
 20
5713914.65676868241
  0
VERTEX
  5
54
100
AcDbEntity
  8
__osie
100
AcDbVertex
100
AcDb2dVertex
 10
7569287.57577259
 20
5713899.99804527499
  0
VERTEX
  5
55
100
AcDbEntity
  8
__osie
100
AcDbVertex
100
AcDb2dVertex
 10
7569271.42102968972
 20
5713898.79123117588
  0
VERTEX
  5
56
100
AcDbEntity
  8
__osie
100
AcDbVertex
100
AcDb2dVertex
 10
7569270.32524763513
 20
5713913.44995485898
  0
SEQEND
  5
57
100
AcDbEntity
  8
__osie
  0
TEXT
  5
58
100
AcDbEntity
  8
__osie
370
15
100
AcDbText
 10
7569261.68717905041
 20
5713920.05157206673
 40
0.38
  1
-5.160-
 50
-86.00
 41
0.66
  7
STANDARD
 72
1
 11
7569261.9199999962
 21
5713919.40999999736
100
AcDbText
 73
2
  0
TEXT
  5
59
100
AcDbEntity
  8
__osie
370
15
100
AcDbText
 10
7569256.50842792727
 20
5713915.97717905138
 40
0.38
  1
-9.160-
 50
-356.00
 41
0.66
  7
STANDARD
 72
1
 11
7569257.14999999665
 21
5713916.20999999717
100
AcDbText
 73
2
  0
TEXT
  5
5A
100
AcDbEntity
  8
__osie
370
15
100
AcDbText
 10
7569251.85717905033
 20
5713919.30157206673
 40
0.38
  1
-5.160-
 50
-86.00
 41
0.66
  7
STANDARD
 72
1
 11
7569252.08999999613
 21
5713918.65999999736
100
AcDbText
 73
2
  0
TEXT
  5
5B
100
AcDbEntity
  8
__osie
370
15
100
AcDbText
 10
7569256.08842792641
 20
5713921.63717905153
 40
0.38
  1
-9.160-
 50
-356.00
 41
0.66
  7
STANDARD
 72
1
 11
7569256.72999999579
 21
5713921.86999999732
100
AcDbText
 73
2
  0
TEXT
  5
5C
100
AcDbEntity
  8
__osie
370
15
100
AcDbText
 10
7569269.99063938018
 20
5713906.82509369589
 40
0.38
  1
-15.320-
 50
-86.00
 41
0.66
  7
STANDARD
 72
1
 11
7569270.22999999579
 21
5713906.08999999706
100
AcDbText
 73
2
  0
TEXT
  5
5D
100
AcDbEntity
  8
__osie
370
15
100
AcDbText
 10
7569278.86490629707
 20
5713898.46063938178
 40
0.38
  1
-16.820-
 50
-356.00
 41
0.66
  7
STANDARD
 72
1
 11
7569279.5999999959
 21
5713898.69999999739
100
AcDbText
 73
2
  0
TEXT
  5
5E
100
AcDbEntity
  8
__osie
370
15
100
AcDbText
 10
7569287.49063938018
 20
5713908.07509369589
 40
0.38
  1
-15.320-
 50
-86.00
 41
0.66
  7
STANDARD
 72
1
 11
7569287.72999999579
 21
5713907.33999999706
100
AcDbText
 73
2
  0
TEXT
  5
5F
100
AcDbEntity
  8
__osie
370
15
100
AcDbText
 10
7569277.70490629692
 20
5713914.54063938186
 40
0.38
  1
-16.821-
 50
-356.00
 41
0.66
  7
STANDARD
 72
1
 11
7569278.43999999575
 21
5713914.77999999747
100
AcDbText
 73
2
  0
TEXT
  5
60
100
AcDbEntity
  8
__osie
420
0
370
15
100
AcDbText
 10
7569271.08063938096
 20
5713906.82509369589
 40
0.38
  1
-14.700-
 50
-86.00
 41
0.66
  7
STANDARD
 72
1
 11
7569271.31999999657
 21
5713906.08999999706
100
AcDbText
 73
2
  0
TEXT
  5
61
100
AcDbEntity
  8
__osie
420
0
370
15
100
AcDbText
 10
7569278.86490629707
 20
5713899.5106393816
 40
0.38
  1
-16.200-
 50
-356.00
 41
0.66
  7
STANDARD
 72
1
 11
7569279.5999999959
 21
5713899.74999999721
100
AcDbText
 73
2
  0
TEXT
  5
62
100
AcDbEntity
  8
__osie
420
0
370
15
100
AcDbText
 10
7569286.42063938081
 20
5713908.13509369642
 40
0.38
  1
-14.700-
 50
-86.00
 41
0.66
  7
STANDARD
 72
1
 11
7569286.65999999642
 21
5713907.39999999758
100
AcDbText
 73
2
  0
TEXT
  5
63
100
AcDbEntity
  8
__osie
420
0
370
15
100
AcDbText
 10
7569277.77490629721
 20
5713913.4406393813
 40
0.38
  1
-16.201-
 50
-356.00
 41
0.66
  7
STANDARD
 72
1
 11
7569278.50999999605
 21
5713913.67999999691
100
AcDbText
 73
2
  0
TEXT
  5
64
100
AcDbEntity
  8
__osie
420
0
370
15
100
AcDbText
 10
7569291.21666966192
 20
5713914.82929374184
 40
0.38
  1
-10.971-
 50
-355.70
 41
0.66
  7
STANDARD
 72
1
 11
7569291.95050000027
 21
5713915.07249999978
100
AcDbText
 73
2
  0
TEXT
  5
65
100
AcDbEntity
  8
__osie
420
0
370
15
100
AcDbText
 10
7569291.42942793109
 20
5713907.60217905417
 40
0.38
  1
-9.514-
 50
-356.00
 41
0.66
  7
STANDARD
 72
1
 11
7569292.07100000046
 21
5713907.83499999996
100
AcDbText
 73
2
  0
TEXT
  5
66
100
AcDbEntity
  8
__osie
420
0
370
15
100
AcDbText
 10
7569287.75449158996
 20
5713894.29383690469
 40
0.38
  1
-12.908-
 50
-86.30
 41
0.66
  7
STANDARD
 72
1
 11
7569287.99000000022
 21
5713893.55749999918
100
AcDbText
 73
2
  0
TEXT
  5
67
100
AcDbEntity
  8
__osie
420
0
370
15
100
AcDbText
 10
7569271.5150865214
 20
5713893.08194527123
 40
0.38
  1
-12.914-
 50
-87.20
 41
0.66
  7
STANDARD
 72
1
 11
7569271.73900000006
 21
5713892.34200000018
100
AcDbText
 73
2
  0
TEXT
  5
68
100
AcDbEntity
  8
__osie
420
0
370
15
100
AcDbText
 10
7569269.38477709889
 20
5713920.49524682481
 40
0.38
  1
-12.068-
 50
-86.40
 41
0.66
  7
STANDARD
 72
1
 11
7569269.61899999995
 21
5713919.75850000046
100
AcDbText
 73
2
  0
TEXT
  5
69
100
AcDbEntity
  8
__osie
420
0
370
15
100
AcDbText
 10
7569286.02417660784
 20
5713921.73661456909
 40
0.38
  1
-12.072-
 50
-85.30
 41
0.66
  7
STANDARD
 72
1
 11
7569286.27249999996
 21
5713921.00449999981
100
AcDbText
 73
2
  0
TEXT
  5
6A
100
AcDbEntity
  8
__osie
420
0
370
15
100
AcDbText
 10
7569251.73641997762
 20
5713923.60138085764
 40
0.38
  1
-3.047-
 50
-86.20
 41
0.66
  7
STANDARD
 72
1
 11
7569251.96700000018
 21
5713922.95900000073
100
AcDbText
 73
2
  0
TEXT
  5
6B
100
AcDbEntity
  8
__osie
420
0
370
15
100
AcDbText
 10
7569261.21454149392
 20
5713924.31078231614
 40
0.38
  1
-3.048-
 50
-86.30
 41
0.66
  7
STANDARD
 72
1
 11
7569261.44400000013
 21
5713923.6679999996
100
AcDbText
 73
2
  0
TEXT
  5
6C
100
AcDbEntity
  8
__osie
420
0
370
15
100
AcDbText
 10
7569249.86913143657
 20
5713921.12553451676
 40
0.38
  1
-3.114-
 50
-356.70
 41
0.66
  7
STANDARD
 72
1
 11
7569250.51349999942
 21
5713921.35050000064
100
AcDbText
 73
2
  0
TEXT
  5
6D
100
AcDbEntity
  8
__osie
420
0
370
15
100
AcDbText
 10
7569249.84490115941
 20
5713915.55297341663
 40
0.38
  1
-4.001-
 50
-355.40
 41
0.66
  7
STANDARD
 72
1
 11
7569250.48400000017
 21
5713915.79250000045
100
AcDbText
 73
2
  0
ENDSEC
  0
SECTION
  2
OBJECTS
  0
DICTIONARY
  5
6E
330
0
100
AcDbDictionary
280
0
281
1
  3
ACAD_GROUP
350
6F
  3
ACAD_LAYOUT
350
70
  3
ACAD_MLINESTYLE
350
71
  3
ACAD_PLOTSETTINGS
350
72
  3
ACAD_PLOTSTYLENAME
350
73
  0
DICTIONARY
  5
6F
102
{ACAD_REACTORS
330
6E
102
}
330
6E
100
AcDbDictionary
280
0
281
1
  0
DICTIONARY
  5
70
102
{ACAD_REACTORS
330
6E
102
}
330
6E
100
AcDbDictionary
280
0
281
1
  3
Layout
350
1B
  3
Model
350
19
  0
DICTIONARY
  5
71
102
{ACAD_REACTORS
330
6E
102
}
330
6E
100
AcDbDictionary
280
0
281
1
  3
Standard
350
74
  3
L_0_02
350
7
  0
DICTIONARY
  5
72
102
{ACAD_REACTORS
330
6E
102
}
330
6E
100
AcDbDictionary
280
0
281
1
  0
ACDBDICTIONARYWDFLT
  5
73
102
{ACAD_REACTORS
330
6E
102
}
330
6E
100
AcDbDictionary
281
1
  3
Normal
350
B
100
AcDbDictionaryWithDefault
340
B
  0
LAYOUT
  5
1B
100
AcDbPlotSettings
  1

  2

  4

  6

 40
0.0
 41
0.0
 42
0.0
 43
0.0
 44
0.0
 45
0.0
 46
0.0
 47
0.0
 48
0.0
 49
0.0
140
0.0
141
0.0
142
1.0
143
1.0
 70
688
 72
1
 73
0
 74
5
  7

 75
0
147
1.0
148
0.0
149
0.0
100
AcDbLayout
  1
Layout
 70
1
 71
1
 10
0.0
 20
0.0
 11
420.0
 21
297.0
 12
0.0
 22
0.0
 32
0.0
 14
100000000000000000000.0
 24
100000000000000000000.0
 34
100000000000000000000.0
 15
-100000000000000000000.0
 25
-100000000000000000000.0
 35
-100000000000000000000.0
146
0.0
 13
0.0
 23
0.0
 33
0.0
 16
1.0
 26
0.0
 36
0.0
 17
0.0
 27
1.0
 37
0.0
 76
0
330
1A
  0
LAYOUT
  5
19
100
AcDbPlotSettings
  1

  2

  4

  6

 40
0.0
 41
0.0
 42
0.0
 43
0.0
 44
0.0
 45
0.0
 46
0.0
 47
0.0
 48
0.0
 49
0.0
140
0.0
141
0.0
142
1.0
143
1.0
 70
1712
 72
1
 73
0
 74
0
  7

 75
0
147
1.0
148
0.0
149
0.0
100
AcDbLayout
  1
Model
 70
1
 71
0
 10
0.0
 20
0.0
 11
12.0
 21
9.0
 12
0.0
 22
0.0
 32
0.0
 14
0.0
 24
0.0
 34
0.0
 15
0.0
 25
0.0
 35
0.0
146
0.0
 13
0.0
 23
0.0
 33
0.0
 16
1.0
 26
0.0
 36
0.0
 17
0.0
 27
1.0
 37
0.0
 76
0
330
18
  0
MLINESTYLE
  5
74
102
{ACAD_REACTORS
330
71
102
}
330
71
100
AcDbMlineStyle
  2
Standard
 70
0
  3

 62
256
 51
90.0
 52
90.0
  2
Standard
 71
2
 49
0.5
 62
256
  6
ByLayer
 49
-0.5
 62
256
  6
ByLayer
  0
MLINESTYLE
  5
7
100
AcDbMlineStyle
  2
L_0_02
 70
0
  3

 51
90.0
 52
90.0
 71
1
 49
0.0
 62
256
  6
CONTINUOUS
  0
ACDBPLACEHOLDER
  5
B
  0
ENDSEC
  0
EOF
